  0
SECTION
  2
HEADER
  9
$ACADVER
  1
AC1015
  9
$ACADMAINTVER
 70
     6
  9
$DWGCODEPAGE
  3
ANSI_1254
  9
$INSBASE
 10
0.0
 20
0.0
 30
0.0
  9
$EXTMIN
 10
0.0
 20
0.0
 30
0.0
  9
$EXTMAX
 10
279.4
 20
215.9
 30
0.0
  9
$LIMMIN
 10
0.0
 20
0.0
  9
$LIMMAX
 10
279.4
 20
215.9
  9
$ORTHOMODE
 70
     0
  9
$REGENMODE
 70
     1
  9
$FILLMODE
 70
     1
  9
$QTEXTMODE
 70
     0
  9
$MIRRTEXT
 70
     1
  9
$LTSCALE
 40
1.0
  9
$ATTMODE
 70
     1
  9
$TEXTSIZE
 40
3.5
  9
$TRACEWID
 40
1.0
  9
$TEXTSTYLE
  7
Standard
  9
$CLAYER
  8
0
  9
$CELTYPE
  6
ByLayer
  9
$CECOLOR
 62
   256
  9
$CELTSCALE
 40
1.0
  9
$DISPSILH
 70
     0
  9
$DIMSCALE
 40
1.0
  9
$DIMASZ
 40
3.5
  9
$DIMEXO
 40
1.0
  9
$DIMDLI
 40
3.75
  9
$DIMRND
 40
0.0
  9
$DIMDLE
 40
0.0
  9
$DIMEXE
 40
1.0
  9
$DIMTP
 40
0.0
  9
$DIMTM
 40
0.0
  9
$DIMTXT
 40
3.5
  9
$DIMCEN
 40
2.5
  9
$DIMTSZ
 40
0.0
  9
$DIMTOL
 70
     0
  9
$DIMLIM
 70
     0
  9
$DIMTIH
 70
     1
  9
$DIMTOH
 70
     1
  9
$DIMSE1
 70
     0
  9
$DIMSE2
 70
     0
  9
$DIMTAD
 70
     1
  9
$DIMZIN
 70
     0
  9
$DIMBLK
  1

  9
$DIMASO
 70
     1
  9
$DIMSHO
 70
     1
  9
$DIMPOST
  1

  9
$DIMAPOST
  1

  9
$DIMALT
 70
     0
  9
$DIMALTD
 70
     3
  9
$DIMALTF
 40
0.0393700787
  9
$DIMLFAC
 40
1.0
  9
$DIMTOFL
 70
     1
  9
$DIMTVP
 40
0.0
  9
$DIMTIX
 70
     0
  9
$DIMSOXD
 70
     0
  9
$DIMSAH
 70
     0
  9
$DIMBLK1
  1

  9
$DIMBLK2
  1

  9
$DIMSTYLE
  2
ISO-25
  9
$DIMCLRD
 70
     0
  9
$DIMCLRE
 70
     0
  9
$DIMCLRT
 70
     0
  9
$DIMTFAC
 40
1.0
  9
$DIMGAP
 40
1.524
  9
$DIMJUST
 70
     0
  9
$DIMSD1
 70
     0
  9
$DIMSD2
 70
     0
  9
$DIMTOLJ
 70
     0
  9
$DIMTZIN
 70
     0
  9
$DIMALTZ
 70
     0
  9
$DIMALTTZ
 70
     0
  9
$DIMUPT
 70
     0
  9
$DIMDEC
 70
     2
  9
$DIMTDEC
 70
     2
  9
$DIMALTU
 70
     2
  9
$DIMALTTD
 70
     3
  9
$DIMTXSTY
  7
Standard
  9
$DIMAUNIT
 70
     0
  9
$DIMADEC
 70
     2
  9
$DIMALTRND
 40
0.0
  9
$DIMAZIN
 70
     0
  9
$DIMDSEP
 70
    44
  9
$DIMATFIT
 70
     3
  9
$DIMFRAC
 70
     0
  9
$DIMLDRBLK
  1

  9
$DIMLUNIT
 70
     2
  9
$DIMLWD
 70
    -2
  9
$DIMLWE
 70
    -2
  9
$DIMTMOVE
 70
     0
  9
$LUNITS
 70
     2
  9
$LUPREC
 70
     2
  9
$SKETCHINC
 40
1.0
  9
$FILLETRAD
 40
10.0
  9
$AUNITS
 70
     0
  9
$AUPREC
 70
     2
  9
$MENU
  1
.
  9
$ELEVATION
 40
0.0
  9
$PELEVATION
 40
0.0
  9
$THICKNESS
 40
0.0
  9
$LIMCHECK
 70
     0
  9
$CHAMFERA
 40
0.0
  9
$CHAMFERB
 40
0.0
  9
$CHAMFERC
 40
0.0
  9
$CHAMFERD
 40
0.0
  9
$SKPOLY
 70
     0
  9
$TDCREATE
 40
2458985.705715891
  9
$TDUCREATE
 40
2458985.580715891
  9
$TDUPDATE
 40
2458985.705716204
  9
$TDUUPDATE
 40
2458985.580716204
  9
$TDINDWG
 40
0.0000000116
  9
$TDUSRTIMER
 40
0.0000000116
  9
$USRTIMER
 70
     1
  9
$ANGBASE
 50
0.0
  9
$ANGDIR
 70
     0
  9
$PDMODE
 70
     0
  9
$PDSIZE
 40
-1.0
  9
$PLINEWID
 40
0.0
  9
$SPLFRAME
 70
     0
  9
$SPLINETYPE
 70
     6
  9
$SPLINESEGS
 70
     8
  9
$HANDSEED
  5
F1
  9
$SURFTAB1
 70
     6
  9
$SURFTAB2
 70
     6
  9
$SURFTYPE
 70
     6
  9
$SURFU
 70
     6
  9
$SURFV
 70
     6
  9
$UCSBASE
  2

  9
$UCSNAME
  2

  9
$UCSORG
 10
0.0
 20
0.0
 30
0.0
  9
$UCSXDIR
 10
1.0
 20
0.0
 30
0.0
  9
$UCSYDIR
 10
0.0
 20
1.0
 30
0.0
  9
$UCSORTHOREF
  2

  9
$UCSORTHOVIEW
 70
     0
  9
$UCSORGTOP
 10
0.0
 20
0.0
 30
0.0
  9
$UCSORGBOTTOM
 10
0.0
 20
0.0
 30
0.0
  9
$UCSORGLEFT
 10
0.0
 20
0.0
 30
0.0
  9
$UCSORGRIGHT
 10
0.0
 20
0.0
 30
0.0
  9
$UCSORGFRONT
 10
0.0
 20
0.0
 30
0.0
  9
$UCSORGBACK
 10
0.0
 20
0.0
 30
0.0
  9
$PUCSBASE
  2

  9
$PUCSNAME
  2

  9
$PUCSORG
 10
0.0
 20
0.0
 30
0.0
  9
$PUCSXDIR
 10
1.0
 20
0.0
 30
0.0
  9
$PUCSYDIR
 10
0.0
 20
1.0
 30
0.0
  9
$PUCSORTHOREF
  2

  9
$PUCSORTHOVIEW
 70
     0
  9
$PUCSORGTOP
 10
0.0
 20
0.0
 30
0.0
  9
$PUCSORGBOTTOM
 10
0.0
 20
0.0
 30
0.0
  9
$PUCSORGLEFT
 10
0.0
 20
0.0
 30
0.0
  9
$PUCSORGRIGHT
 10
0.0
 20
0.0
 30
0.0
  9
$PUCSORGFRONT
 10
0.0
 20
0.0
 30
0.0
  9
$PUCSORGBACK
 10
0.0
 20
0.0
 30
0.0
  9
$USERI1
 70
     0
  9
$USERI2
 70
     0
  9
$USERI3
 70
     0
  9
$USERI4
 70
     0
  9
$USERI5
 70
     0
  9
$USERR1
 40
0.0
  9
$USERR2
 40
0.0
  9
$USERR3
 40
0.0
  9
$USERR4
 40
0.0
  9
$USERR5
 40
0.0
  9
$WORLDVIEW
 70
     1
  9
$SHADEDGE
 70
     3
  9
$SHADEDIF
 70
    70
  9
$TILEMODE
 70
     1
  9
$MAXACTVP
 70
    64
  9
$PINSBASE
 10
0.0
 20
0.0
 30
0.0
  9
$PLIMCHECK
 70
     0
  9
$PEXTMIN
 10
1.0000000000E+20
 20
1.0000000000E+20
 30
1.0000000000E+20
  9
$PEXTMAX
 10
-1.0000000000E+20
 20
-1.0000000000E+20
 30
-1.0000000000E+20
  9
$PLIMMIN
 10
0.0
 20
0.0
  9
$PLIMMAX
 10
420.0
 20
297.0
  9
$UNITMODE
 70
     0
  9
$VISRETAIN
 70
     1
  9
$PLINEGEN
 70
     0
  9
$PSLTSCALE
 70
     1
  9
$TREEDEPTH
 70
  3020
  9
$CMLSTYLE
  2
Standard
  9
$CMLJUST
 70
     0
  9
$CMLSCALE
 40
20.0
  9
$PROXYGRAPHICS
 70
     1
  9
$MEASUREMENT
 70
     1
  9
$CELWEIGHT
370
    -1
  9
$ENDCAPS
280
     0
  9
$JOINSTYLE
280
     0
  9
$LWDISPLAY
290
     1
  9
$INSUNITS
 70
     4
  9
$HYPERLINKBASE
  1

  9
$STYLESHEET
  1

  9
$XEDIT
290
     1
  9
$CEPSNTYPE
380
     0
  9
$PSTYLEMODE
290
     1
  9
$FINGERPRINTGUID
  2
{c487d719-56b0-4715-970e-58af4da93e0c}
  9
$VERSIONGUID
  2
{FAEB1C32-E019-11D5-929B-00C0DF256EC4}
  9
$EXTNAMES
290
     1
  9
$PSVPSCALE
 40
0.0
  9
$OLESTARTUP
290
     0
  0
ENDSEC
  0
SECTION
  2
CLASSES
  0
CLASS
  1
ACDBDICTIONARYWDFLT
  2
AcDbDictionaryWithDefault
  3
ObjectDBX Classes
 90
        0
280
     0
281
     0
  0
CLASS
  1
VISUALSTYLE
  2
AcDbVisualStyle
  3
ObjectDBX Classes
 90
     4095
280
     0
281
     0
  0
CLASS
  1
MATERIAL
  2
AcDbMaterial
  3
ObjectDBX Classes
 90
     1153
280
     0
281
     0
  0
CLASS
  1
SCALE
  2
AcDbScale
  3
ObjectDBX Classes
 90
     1153
280
     0
281
     0
  0
CLASS
  1
TABLESTYLE
  2
AcDbTableStyle
  3
ObjectDBX Classes
 90
     4095
280
     0
281
     0
  0
CLASS
  1
MLEADERSTYLE
  2
AcDbMLeaderStyle
  3
ACDB_MLEADERSTYLE_CLASS
 90
     4095
280
     0
281
     0
  0
CLASS
  1
SUN
  2
AcDbSun
  3
SCENEOE
 90
     1153
280
     0
281
     0
  0
CLASS
  1
ACDBPLACEHOLDER
  2
AcDbPlaceHolder
  3
ObjectDBX Classes
 90
        0
280
     0
281
     0
  0
CLASS
  1
LAYOUT
  2
AcDbLayout
  3
ObjectDBX Classes
 90
        0
280
     0
281
     0
  0
ENDSEC
  0
SECTION
  2
TABLES
  0
TABLE
  2
VPORT
  5
8
330
0
100
AcDbSymbolTable
 70
     1
  0
VPORT
  5
29
330
8
100
AcDbSymbolTableRecord
100
AcDbViewportTableRecord
  2
*Active
 70
     0
 10
0.0
 20
0.0
 11
1.0
 21
1.0
 12
139.7
 22
107.95
 13
0.0
 23
0.0
 14
10.0
 24
10.0
 15
10.0
 25
10.0
 16
0.0
 26
0.0
 36
1.0
 17
0.0
 27
0.0
 37
0.0
 40
215.9
 41
1.2941176471
 42
50.0
 43
0.0
 44
0.0
 50
0.0
 51
0.0
 71
     0
 72
  2000
 73
     1
 74
     3
 75
     0
 76
     0
 77
     0
 78
     0
281
     0
 65
     1
110
0.0
120
0.0
130
0.0
111
1.0
121
0.0
131
0.0
112
0.0
122
1.0
132
0.0
 79
     0
146
0.0
  0
ENDTAB
  0
TABLE
  2
LTYPE
  5
5
330
0
100
AcDbSymbolTable
 70
     6
  0
LTYPE
  5
14
330
5
100
AcDbSymbolTableRecord
100
AcDbLinetypeTableRecord
  2
ByBlock
 70
     0
  3

 72
    65
 73
     0
 40
0.0
  0
LTYPE
  5
15
330
5
100
AcDbSymbolTableRecord
100
AcDbLinetypeTableRecord
  2
ByLayer
 70
     0
  3

 72
    65
 73
     0
 40
0.0
  0
LTYPE
  5
16
330
5
100
AcDbSymbolTableRecord
100
AcDbLinetypeTableRecord
  2
Continuous
 70
     0
  3
Solid line
 72
    65
 73
     0
 40
0.0
  0
LTYPE
  5
6E
330
5
100
AcDbSymbolTableRecord
100
AcDbLinetypeTableRecord
  2
HIDDEN
 70
     0
  3
Hidden __ __ __ __ __ __ __ __ __ __ __ __ __ __
 72
    65
 73
     2
 40
1.905
 49
1.27
 74
     0
 49
-0.635
 74
     0
  0
LTYPE
  5
6F
330
5
100
AcDbSymbolTableRecord
100
AcDbLinetypeTableRecord
  2
PHANTOM
 70
     0
  3
Phantom ______  __  __  ______  __  __  ______
 72
    65
 73
     6
 40
12.7
 49
6.35
 74
     0
 49
-1.27
 74
     0
 49
1.27
 74
     0
 49
-1.27
 74
     0
 49
1.27
 74
     0
 49
-1.27
 74
     0
  0
LTYPE
  5
70
330
5
100
AcDbSymbolTableRecord
100
AcDbLinetypeTableRecord
  2
CENTER
 70
     0
  3
Center ____ _ ____ _ ____ _ ____ _ ____ _ ____
 72
    65
 73
     4
 40
10.16
 49
6.35
 74
     0
 49
-1.27
 74
     0
 49
1.27
 74
     0
 49
-1.27
 74
     0
  0
LTYPE
  5
71
330
5
100
AcDbSymbolTableRecord
100
AcDbLinetypeTableRecord
  2
CENTERX2
 70
     0
  3
Center (2x) ________  __  ________  __  _____
 72
    65
 73
     4
 40
20.32
 49
12.7
 74
     0
 49
-2.54
 74
     0
 49
2.54
 74
     0
 49
-2.54
 74
     0
  0
LTYPE
  5
72
330
5
100
AcDbSymbolTableRecord
100
AcDbLinetypeTableRecord
  2
DOT2
 70
     0
  3
Dot (.5x) ........................................
 72
    65
 73
     2
 40
0.635
 49
0.0
 74
     0
 49
-0.635
 74
     0
  0
ENDTAB
  0
TABLE
  2
LAYER
  5
2
330
0
100
AcDbSymbolTable
 70
    17
  0
LAYER
  5
10
330
2
100
AcDbSymbolTableRecord
100
AcDbLayerTableRecord
  2
0
 70
     0
 62
     7
  6
Continuous
370
    -3
390
F
  0
LAYER
  5
73
330
2
100
AcDbSymbolTableRecord
100
AcDbLayerTableRecord
  2
FORMAT
 70
     0
 62
     7
  6
Continuous
370
    -3
390
F
  0
LAYER
  5
74
330
2
100
AcDbSymbolTableRecord
100
AcDbLayerTableRecord
  2
YARDIMCI_GEOMETRI
 70
     0
 62
    -6
  6
Continuous
290
     0
370
    -3
390
F
  0
LAYER
  5
75
330
2
100
AcDbSymbolTableRecord
100
AcDbLayerTableRecord
  2
SAYFA_CERCEVESI
 70
     0
 62
     7
  6
Continuous
370
    25
390
F
  0
LAYER
  5
76
330
2
100
AcDbSymbolTableRecord
100
AcDbLayerTableRecord
  2
ANTET
 70
     0
 62
     7
  6
Continuous
370
    -3
390
F
  0
LAYER
  5
77
330
2
100
AcDbSymbolTableRecord
100
AcDbLayerTableRecord
  2
OLCU
 70
     0
 62
   150
  6
Continuous
370
    -3
390
F
  0
LAYER
  5
78
330
2
100
AcDbSymbolTableRecord
100
AcDbLayerTableRecord
  2
METIN
 70
     0
 62
    96
  6
Continuous
370
    -3
390
F
  0
LAYER
  5
79
330
2
100
AcDbSymbolTableRecord
100
AcDbLayerTableRecord
  2
BALON
 70
     0
 62
     5
  6
Continuous
370
    -3
390
F
  0
LAYER
  5
7A
330
2
100
AcDbSymbolTableRecord
100
AcDbLayerTableRecord
  2
VURGU
 70
     0
 62
     7
  6
Continuous
370
    -3
390
F
  0
LAYER
  5
7B
330
2
100
AcDbSymbolTableRecord
100
AcDbLayerTableRecord
  2
SILIK
 70
     0
 62
     7
  6
Continuous
370
    -3
390
F
  0
LAYER
  5
7C
330
2
100
AcDbSymbolTableRecord
100
AcDbLayerTableRecord
  2
MODEL
 70
     0
 62
     7
  6
Continuous
370
    -3
390
F
  0
LAYER
  5
7D
330
2
100
AcDbSymbolTableRecord
100
AcDbLayerTableRecord
  2
DETAYLANDıRMA
 70
     0
 62
   190
  6
Continuous
370
    -3
390
F
  0
LAYER
  5
7E
330
2
100
AcDbSymbolTableRecord
100
AcDbLayerTableRecord
  2
TOLERANS
 70
     0
 62
   230
  6
Continuous
370
    -3
390
F
  0
LAYER
  5
7F
330
2
100
AcDbSymbolTableRecord
100
AcDbLayerTableRecord
  2
MERKEZ_CIZGILERI
 70
     0
 62
    30
  6
Continuous
370
    -3
390
F
  0
LAYER
  5
80
330
2
100
AcDbSymbolTableRecord
100
AcDbLayerTableRecord
  2
KESIT-DETAY_CIZGILERI
 70
     0
 62
     7
  6
Continuous
370
    -3
390
F
  0
LAYER
  5
81
330
2
100
AcDbSymbolTableRecord
100
AcDbLayerTableRecord
  2
\U+041E\U+0421\U+0415\U+0412\U+042B\U+0415
 70
     0
 62
     7
  6
Continuous
370
    -3
390
F
  0
LAYER
  5
82
330
2
100
AcDbSymbolTableRecord
100
AcDbLayerTableRecord
  2
\U+0412\U+041E\U+0414\U+042F\U+041D\U+042B\U+0415_\U+0417\U+041D\U+0410\U+041A\U+0418
 70
     0
 62
    11
  6
Continuous
370
    -3
390
F
  0
ENDTAB
  0
TABLE
  2
STYLE
  5
3
330
0
100
AcDbSymbolTable
 70
     1
  0
STYLE
  5
11
330
3
100
AcDbSymbolTableRecord
100
AcDbTextStyleTableRecord
  2
Standard
 70
     0
 40
0.0
 41
1.0
 50
0.0
 71
     0
 42
3.5
  3
txt
  4

  0
ENDTAB
  0
TABLE
  2
VIEW
  5
6
330
0
100
AcDbSymbolTable
 70
     0
  0
ENDTAB
  0
TABLE
  2
UCS
  5
7
330
0
100
AcDbSymbolTable
 70
     0
  0
ENDTAB
  0
TABLE
  2
APPID
  5
9
330
0
100
AcDbSymbolTable
 70
     1
  0
APPID
  5
12
330
9
100
AcDbSymbolTableRecord
100
AcDbRegAppTableRecord
  2
ACAD
 70
     0
  0
ENDTAB
  0
TABLE
  2
DIMSTYLE
  5
A
330
0
100
AcDbSymbolTable
 70
     1
100
AcDbDimStyleTable
  0
DIMSTYLE
105
27
330
A
100
AcDbSymbolTableRecord
100
AcDbDimStyleTableRecord
  2
ISO-25
 70
     0
 41
2.5
 42
0.625
 43
3.75
 44
1.25
 73
     0
 74
     0
 77
     1
 78
     8
140
2.5
141
2.5
143
0.0393700787
147
0.625
171
     3
172
     1
178
     0
271
     2
272
     2
274
     3
278
    44
283
     0
284
     8
340
11
  0
ENDTAB
  0
TABLE
  2
BLOCK_RECORD
  5
1
330
0
100
AcDbSymbolTable
 70
     2
  0
BLOCK_RECORD
  5
1F
330
1
100
AcDbSymbolTableRecord
100
AcDbBlockTableRecord
  2
*Model_Space
340
22
  0
BLOCK_RECORD
  5
1B
330
1
100
AcDbSymbolTableRecord
100
AcDbBlockTableRecord
  2
*Paper_Space
340
1E
  0
BLOCK_RECORD
  5
23
330
1
100
AcDbSymbolTableRecord
100
AcDbBlockTableRecord
  2
*Paper_Space0
340
26
  0
BLOCK_RECORD
  5
88
330
1
100
AcDbSymbolTableRecord
100
AcDbBlockTableRecord
  2
SW_CENTERMARKSYMBOL_0
340
0
102
{BLKREFS
331
93
102
}
  0
ENDTAB
  0
ENDSEC
  0
SECTION
  2
BLOCKS
  0
BLOCK
  5
20
330
1F
100
AcDbEntity
  8
0
100
AcDbBlockBegin
  2
*Model_Space
 70
     0
 10
0.0
 20
0.0
 30
0.0
  3
*Model_Space
  1

  0
ENDBLK
  5
21
330
1F
100
AcDbEntity
  8
0
100
AcDbBlockEnd
  0
BLOCK
  5
1C
330
1B
100
AcDbEntity
 67
     1
  8
0
100
AcDbBlockBegin
  2
*Paper_Space
 70
     0
 10
0.0
 20
0.0
 30
0.0
  3
*Paper_Space
  1

  0
ENDBLK
  5
1D
330
1B
100
AcDbEntity
 67
     1
  8
0
100
AcDbBlockEnd
  0
BLOCK
  5
24
330
23
100
AcDbEntity
  8
0
100
AcDbBlockBegin
  2
*Paper_Space0
 70
     0
 10
0.0
 20
0.0
 30
0.0
  3
*Paper_Space0
  1

  0
ENDBLK
  5
25
330
23
100
AcDbEntity
  8
0
100
AcDbBlockEnd
  0
BLOCK
  5
89
330
88
100
AcDbEntity
  8
0
100
AcDbBlockBegin
  2
SW_CENTERMARKSYMBOL_0
 70
     0
 10
0.0
 20
0.0
 30
0.0
  3
SW_CENTERMARKSYMBOL_0
  1

  0
LINE
  5
8B
330
88
100
AcDbEntity
  8
FORMAT
 62
     0
100
AcDbLine
 10
0.0
 20
0.0
 30
0.0
 11
0.0
 21
2.5
 31
0.0
  0
LINE
  5
8C
330
88
100
AcDbEntity
  8
FORMAT
 62
     0
100
AcDbLine
 10
0.0
 20
0.0
 30
0.0
 11
-2.5
 21
0.0
 31
0.0
  0
LINE
  5
8D
330
88
100
AcDbEntity
  8
FORMAT
 62
     0
100
AcDbLine
 10
0.0
 20
0.0
 30
0.0
 11
0.0
 21
-2.5
 31
0.0
  0
LINE
  5
8E
330
88
100
AcDbEntity
  8
FORMAT
 62
     0
100
AcDbLine
 10
0.0
 20
0.0
 30
0.0
 11
2.5
 21
0.0
 31
0.0
  0
LINE
  5
8F
330
88
100
AcDbEntity
  8
FORMAT
 62
     0
100
AcDbLine
 10
0.0
 20
5.0
 30
0.0
 11
0.0
 21
82.5
 31
0.0
  0
LINE
  5
90
330
88
100
AcDbEntity
  8
FORMAT
 62
     0
100
AcDbLine
 10
-5.0
 20
0.0
 30
0.0
 11
-82.5
 21
0.0
 31
0.0
  0
LINE
  5
91
330
88
100
AcDbEntity
  8
FORMAT
 62
     0
100
AcDbLine
 10
0.0
 20
-5.0
 30
0.0
 11
0.0
 21
-82.5
 31
0.0
  0
LINE
  5
92
330
88
100
AcDbEntity
  8
FORMAT
 62
     0
100
AcDbLine
 10
5.0
 20
0.0
 30
0.0
 11
82.5
 21
0.0
 31
0.0
  0
ENDBLK
  5
8A
330
88
100
AcDbEntity
  8
0
100
AcDbBlockEnd
  0
ENDSEC
  0
SECTION
  2
ENTITIES
  0
CIRCLE
  5
83
330
1F
100
AcDbEntity
  8
0
  6
Continuous
 62
     7
370
    25
100
AcDbCircle
 10
136.0804557792
 20
118.8813202377
 30
0.0
 40
80.00000000000003
  0
CIRCLE
  5
84
330
1F
100
AcDbEntity
  8
0
  6
Continuous
 62
     7
370
    25
100
AcDbCircle
 10
136.0804557792
 20
118.8813202377
 30
0.0
 40
70.50000000000001
  0
CIRCLE
  5
85
330
1F
100
AcDbEntity
  8
0
  6
Continuous
 62
     7
370
    25
100
AcDbCircle
 10
136.0804557792
 20
118.8813202377
 30
0.0
 40
69.94567905194025
  0
CIRCLE
  5
86
330
1F
100
AcDbEntity
  8
0
  6
Continuous
 62
     7
370
    25
100
AcDbCircle
 10
136.0804557792
 20
118.8813202377
 30
0.0
 40
40.15432094805976
  0
CIRCLE
  5
87
330
1F
100
AcDbEntity
  8
0
  6
Continuous
 62
     7
370
    25
100
AcDbCircle
 10
136.0804557792
 20
118.8813202377
 30
0.0
 40
39.59999999999999
  0
INSERT
  5
93
330
1F
100
AcDbEntity
  8
FORMAT
 62
     7
100
AcDbBlockReference
  2
SW_CENTERMARKSYMBOL_0
 10
136.0804557792
 20
118.8813202377
 30
0.0
  0
LINE
  5
94
330
1F
100
AcDbEntity
  8
0
  6
Continuous
 62
     7
370
    25
100
AcDbLine
 10
-177.4894798533
 20
198.8813184496
 30
0.0
 11
-275.0049790726
 21
198.8813184496
 31
0.0
  0
LINE
  5
95
330
1F
100
AcDbEntity
  8
0
  6
Continuous
 62
     7
370
    25
100
AcDbLine
 10
-275.0049790726
 20
38.8813220259
 30
0.0
 11
-177.4894798533
 21
38.8813220259
 31
0.0
  0
ARC
  5
96
330
1F
100
AcDbEntity
  8
0
  6
Continuous
 62
     7
370
    25
100
AcDbCircle
 10
-177.489479813
 20
196.8813202377
 30
0.0
 40
2.000000000000006
100
AcDbArc
 50
62.7648533007
 51
90.0
  0
ARC
  5
97
330
1F
100
AcDbEntity
  8
0
  6
Continuous
 62
     7
370
    25
100
AcDbCircle
 10
-177.489479813
 20
40.8813202377
 30
0.0
 40
2.000000000000014
100
AcDbArc
 50
270.0
 51
297.2351466993
  0
LINE
  5
98
330
1F
100
AcDbEntity
  8
0
  6
Continuous
 62
     7
370
    25
100
AcDbLine
 10
-176.5741927908
 20
39.1030513044
 30
0.0
 11
-109.435766785
 21
73.6595928963
 31
0.0
  0
LINE
  5
99
330
1F
100
AcDbEntity
  8
0
  6
Continuous
 62
     7
370
    25
100
AcDbLine
 10
-109.435766785
 20
164.1030475791
 30
0.0
 11
-176.5741927908
 21
198.659589171
 31
0.0
  0
ARC
  5
9A
330
1F
100
AcDbEntity
  8
0
  6
Continuous
 62
     7
370
    25
100
AcDbCircle
 10
-108.5204792164
 20
165.8813202377
 30
0.0
 40
2.0
100
AcDbArc
 50
242.7648533007
 51
270.0
  0
ARC
  5
9B
330
1F
100
AcDbEntity
  8
0
  6
Continuous
 62
     7
370
    25
100
AcDbCircle
 10
-108.5204792164
 20
71.8813202377
 30
0.0
 40
2.0
100
AcDbArc
 50
90.0
 51
117.2351466993
  0
LINE
  5
9C
330
1F
100
AcDbEntity
  8
0
  6
Continuous
 62
     7
370
    25
100
AcDbLine
 10
-30.0049817548
 20
163.8813220259
 30
0.0
 11
-108.5204778598
 21
163.8813220259
 31
0.0
  0
LINE
  5
9D
330
1F
100
AcDbEntity
  8
0
  6
Continuous
 62
     7
370
    25
100
AcDbLine
 10
-108.5204778598
 20
73.8813184496
 30
0.0
 11
-30.0049817548
 21
73.8813184496
 31
0.0
  0
LINE
  5
9E
330
1F
100
AcDbEntity
  8
0
  6
Continuous
 62
     7
370
    25
100
AcDbLine
 10
-275.0049790726
 20
198.8813184496
 30
0.0
 11
-275.0049790726
 21
38.8813220259
 31
0.0
  0
LINE
  5
9F
330
1F
100
AcDbEntity
  8
0
  6
Continuous
 62
     7
370
    25
100
AcDbLine
 10
-30.0049817548
 20
163.8813220259
 30
0.0
 11
-30.0049817548
 21
73.8813184496
 31
0.0
  0
LINE
  5
A0
330
1F
100
AcDbEntity
  8
0
  6
Continuous
 62
     1
370
    25
100
AcDbLine
 10
-177.4894798533
 20
198.8813184496
 30
0.0
 11
-177.4894798533
 21
38.8813220259
 31
0.0
  0
LINE
  5
A1
330
1F
100
AcDbEntity
  8
0
  6
Continuous
 62
     1
370
    25
100
AcDbLine
 10
-176.5741927908
 20
198.659589171
 30
0.0
 11
-176.5741927908
 21
39.1030513044
 31
0.0
  0
LINE
  5
A2
330
1F
100
AcDbEntity
  8
0
  6
Continuous
 62
     1
370
    25
100
AcDbLine
 10
-109.435766785
 20
164.1030475791
 30
0.0
 11
-109.435766785
 21
73.6595928963
 31
0.0
  0
LINE
  5
A3
330
1F
100
AcDbEntity
  8
0
  6
Continuous
 62
     1
370
    25
100
AcDbLine
 10
-108.5204778598
 20
163.8813220259
 30
0.0
 11
-108.5204778598
 21
73.8813184496
 31
0.0
  0
LINE
  5
A4
330
1F
100
AcDbEntity
  8
0
  6
Continuous
 62
     7
370
    25
100
AcDbLine
 10
216.080453991
 20
385.9648187841
 30
0.0
 11
216.080453991
 21
483.4803180034
 31
0.0
  0
LINE
  5
A5
330
1F
100
AcDbEntity
  8
0
  6
Continuous
 62
     7
370
    25
100
AcDbLine
 10
56.0804575673
 20
483.4803180034
 30
0.0
 11
56.0804575673
 21
385.9648187841
 31
0.0
  0
ARC
  5
A6
330
1F
100
AcDbEntity
  8
0
  6
Continuous
 62
     7
370
    25
100
AcDbCircle
 10
214.0804557792
 20
385.9648187437
 30
0.0
 40
2.00000000000002
100
AcDbArc
 50
332.7648533007
 51
0.0
  0
ARC
  5
A7
330
1F
100
AcDbEntity
  8
0
  6
Continuous
 62
     7
370
    25
100
AcDbCircle
 10
58.0804557792
 20
385.9648187437
 30
0.0
 40
2.00000000000002
100
AcDbArc
 50
180.0
 51
207.2351466993
  0
LINE
  5
A8
330
1F
100
AcDbEntity
  8
0
  6
Continuous
 62
     7
370
    25
100
AcDbLine
 10
56.3021868459
 20
385.0495317215
 30
0.0
 11
90.8587284378
 21
317.9111057157
 31
0.0
  0
LINE
  5
A9
330
1F
100
AcDbEntity
  8
0
  6
Continuous
 62
     7
370
    25
100
AcDbLine
 10
181.3021831206
 20
317.9111057157
 30
0.0
 11
215.8587247125
 21
385.0495317215
 31
0.0
  0
ARC
  5
AA
330
1F
100
AcDbEntity
  8
0
  6
Continuous
 62
     7
370
    25
100
AcDbCircle
 10
183.0804557792
 20
316.9958181472
 30
0.0
 40
2.0
100
AcDbArc
 50
152.7648533007
 51
180.0
  0
ARC
  5
AB
330
1F
100
AcDbEntity
  8
0
  6
Continuous
 62
     7
370
    25
100
AcDbCircle
 10
89.0804557792
 20
316.9958181472
 30
0.0
 40
2.000000000000007
100
AcDbArc
 50
0.0
 51
27.2351466993
  0
LINE
  5
AC
330
1F
100
AcDbEntity
  8
0
  6
Continuous
 62
     7
370
    25
100
AcDbLine
 10
181.0804575673
 20
238.4803206856
 30
0.0
 11
181.0804575673
 21
316.9958167905
 31
0.0
  0
LINE
  5
AD
330
1F
100
AcDbEntity
  8
0
  6
Continuous
 62
     7
370
    25
100
AcDbLine
 10
91.080453991
 20
316.9958167905
 30
0.0
 11
91.080453991
 21
238.4803206856
 31
0.0
  0
LINE
  5
AE
330
1F
100
AcDbEntity
  8
0
  6
Continuous
 62
     7
370
    25
100
AcDbLine
 10
216.080453991
 20
483.4803180034
 30
0.0
 11
56.0804575673
 21
483.4803180034
 31
0.0
  0
LINE
  5
AF
330
1F
100
AcDbEntity
  8
0
  6
Continuous
 62
     7
370
    25
100
AcDbLine
 10
181.0804575673
 20
238.4803206856
 30
0.0
 11
91.080453991
 21
238.4803206856
 31
0.0
  0
LINE
  5
B0
330
1F
100
AcDbEntity
  8
0
  6
Continuous
 62
     1
370
    25
100
AcDbLine
 10
216.080453991
 20
385.9648187841
 30
0.0
 11
56.0804575673
 21
385.9648187841
 31
0.0
  0
LINE
  5
B1
330
1F
100
AcDbEntity
  8
0
  6
Continuous
 62
     1
370
    25
100
AcDbLine
 10
215.8587247125
 20
385.0495317215
 30
0.0
 11
56.3021868459
 21
385.0495317215
 31
0.0
  0
LINE
  5
B2
330
1F
100
AcDbEntity
  8
0
  6
Continuous
 62
     1
370
    25
100
AcDbLine
 10
181.3021831206
 20
317.9111057157
 30
0.0
 11
90.8587284378
 21
317.9111057157
 31
0.0
  0
LINE
  5
B3
330
1F
100
AcDbEntity
  8
0
  6
Continuous
 62
     1
370
    25
100
AcDbLine
 10
181.0804575673
 20
316.9958167905
 30
0.0
 11
91.080453991
 21
316.9958167905
 31
0.0
  0
LINE
  5
B4
330
1F
100
AcDbEntity
  8
0
  6
Continuous
 62
     7
370
    25
100
AcDbLine
 10
448.3784743198
 20
38.8813220259
 30
0.0
 11
545.8939735391
 21
38.8813220259
 31
0.0
  0
LINE
  5
B5
330
1F
100
AcDbEntity
  8
0
  6
Continuous
 62
     7
370
    25
100
AcDbLine
 10
545.8939735391
 20
198.8813184496
 30
0.0
 11
448.3784743198
 21
198.8813184496
 31
0.0
  0
ARC
  5
B6
330
1F
100
AcDbEntity
  8
0
  6
Continuous
 62
     7
370
    25
100
AcDbCircle
 10
448.3784742795
 20
40.8813202377
 30
0.0
 40
2.000000000000014
100
AcDbArc
 50
242.7648533007
 51
270.0
  0
ARC
  5
B7
330
1F
100
AcDbEntity
  8
0
  6
Continuous
 62
     7
370
    25
100
AcDbCircle
 10
448.3784742795
 20
196.8813202377
 30
0.0
 40
2.0
100
AcDbArc
 50
90.0
 51
117.2351466993
  0
LINE
  5
B8
330
1F
100
AcDbEntity
  8
0
  6
Continuous
 62
     7
370
    25
100
AcDbLine
 10
447.4631872573
 20
198.659589171
 30
0.0
 11
380.3247612514
 21
164.1030475791
 31
0.0
  0
LINE
  5
B9
330
1F
100
AcDbEntity
  8
0
  6
Continuous
 62
     7
370
    25
100
AcDbLine
 10
380.3247612514
 20
73.6595928963
 30
0.0
 11
447.4631872573
 21
39.1030513044
 31
0.0
  0
ARC
  5
BA
330
1F
100
AcDbEntity
  8
0
  6
Continuous
 62
     7
370
    25
100
AcDbCircle
 10
379.4094736829
 20
71.8813202377
 30
0.0
 40
2.000000000000007
100
AcDbArc
 50
62.7648533007
 51
90.0
  0
ARC
  5
BB
330
1F
100
AcDbEntity
  8
0
  6
Continuous
 62
     7
370
    25
100
AcDbCircle
 10
379.4094736829
 20
165.8813202377
 30
0.0
 40
2.0
100
AcDbArc
 50
270.0
 51
297.2351466993
  0
LINE
  5
BC
330
1F
100
AcDbEntity
  8
0
  6
Continuous
 62
     7
370
    25
100
AcDbLine
 10
300.8939762213
 20
73.8813184496
 30
0.0
 11
379.4094723263
 21
73.8813184496
 31
0.0
  0
LINE
  5
BD
330
1F
100
AcDbEntity
  8
0
  6
Continuous
 62
     7
370
    25
100
AcDbLine
 10
379.4094723263
 20
163.8813220259
 30
0.0
 11
300.8939762213
 21
163.8813220259
 31
0.0
  0
LINE
  5
BE
330
1F
100
AcDbEntity
  8
0
  6
Continuous
 62
     7
370
    25
100
AcDbLine
 10
545.8939735391
 20
118.8813202377
 30
0.0
 11
545.8939735391
 21
198.8813184496
 31
0.0
  0
LINE
  5
BF
330
1F
100
AcDbEntity
  8
0
  6
Continuous
 62
     7
370
    25
100
AcDbLine
 10
545.8939735391
 20
38.8813220259
 30
0.0
 11
545.8939735391
 21
118.8813202377
 31
0.0
  0
LINE
  5
C0
330
1F
100
AcDbEntity
  8
0
  6
Continuous
 62
     7
370
    25
100
AcDbLine
 10
300.8939762213
 20
118.8813202377
 30
0.0
 11
300.8939762213
 21
163.8813220259
 31
0.0
  0
LINE
  5
C1
330
1F
100
AcDbEntity
  8
0
  6
Continuous
 62
     7
370
    25
100
AcDbLine
 10
300.8939762213
 20
73.8813184496
 30
0.0
 11
300.8939762213
 21
118.8813202377
 31
0.0
  0
LINE
  5
C2
330
1F
100
AcDbEntity
  8
0
  6
Continuous
 62
     1
370
    25
100
AcDbLine
 10
448.3784743198
 20
118.8813202377
 30
0.0
 11
448.3784743198
 21
198.8813184496
 31
0.0
  0
LINE
  5
C3
330
1F
100
AcDbEntity
  8
0
  6
Continuous
 62
     1
370
    25
100
AcDbLine
 10
448.3784743198
 20
38.8813220259
 30
0.0
 11
448.3784743198
 21
118.8813202377
 31
0.0
  0
LINE
  5
C4
330
1F
100
AcDbEntity
  8
0
  6
Continuous
 62
     1
370
    25
100
AcDbLine
 10
447.4631872573
 20
118.8813202377
 30
0.0
 11
447.4631872573
 21
198.659589171
 31
0.0
  0
LINE
  5
C5
330
1F
100
AcDbEntity
  8
0
  6
Continuous
 62
     1
370
    25
100
AcDbLine
 10
447.4631872573
 20
39.1030513044
 30
0.0
 11
447.4631872573
 21
118.8813202377
 31
0.0
  0
LINE
  5
C6
330
1F
100
AcDbEntity
  8
0
  6
Continuous
 62
     1
370
    25
100
AcDbLine
 10
380.3247612514
 20
118.8813202377
 30
0.0
 11
380.3247612514
 21
164.1030475791
 31
0.0
  0
LINE
  5
C7
330
1F
100
AcDbEntity
  8
0
  6
Continuous
 62
     1
370
    25
100
AcDbLine
 10
380.3247612514
 20
73.6595928963
 30
0.0
 11
380.3247612514
 21
118.8813202377
 31
0.0
  0
LINE
  5
C8
330
1F
100
AcDbEntity
  8
0
  6
Continuous
 62
     1
370
    25
100
AcDbLine
 10
379.4094723263
 20
118.8813202377
 30
0.0
 11
379.4094723263
 21
163.8813220259
 31
0.0
  0
LINE
  5
C9
330
1F
100
AcDbEntity
  8
0
  6
Continuous
 62
     1
370
    25
100
AcDbLine
 10
379.4094723263
 20
73.8813184496
 30
0.0
 11
379.4094723263
 21
118.8813202377
 31
0.0
  0
LINE
  5
CA
330
1F
100
AcDbEntity
  8
0
  6
Continuous
 62
     7
370
    25
100
AcDbLine
 10
56.0804575673
 20
-170.7759973891
 30
0.0
 11
56.0804575673
 21
-268.2914966084
 31
0.0
  0
LINE
  5
CB
330
1F
100
AcDbEntity
  8
0
  6
Continuous
 62
     7
370
    25
100
AcDbLine
 10
216.080453991
 20
-268.2914966084
 30
0.0
 11
216.080453991
 21
-170.7759973891
 31
0.0
  0
ARC
  5
CC
330
1F
100
AcDbEntity
  8
0
  6
Continuous
 62
     7
370
    25
100
AcDbCircle
 10
58.0804557792
 20
-170.7759973488
 30
0.0
 40
2.000000000000014
100
AcDbArc
 50
152.7648533007
 51
180.0
  0
ARC
  5
CD
330
1F
100
AcDbEntity
  8
0
  6
Continuous
 62
     7
370
    25
100
AcDbCircle
 10
214.0804557792
 20
-170.7759973488
 30
0.0
 40
2.000000000000006
100
AcDbArc
 50
0.0
 51
27.2351466993
  0
LINE
  5
CE
330
1F
100
AcDbEntity
  8
0
  6
Continuous
 62
     7
370
    25
100
AcDbLine
 10
215.8587247125
 20
-169.8607103266
 30
0.0
 11
181.3021831206
 21
-102.7222843207
 31
0.0
  0
LINE
  5
CF
330
1F
100
AcDbEntity
  8
0
  6
Continuous
 62
     7
370
    25
100
AcDbLine
 10
90.8587284378
 20
-102.7222843207
 30
0.0
 11
56.3021868459
 21
-169.8607103266
 31
0.0
  0
ARC
  5
D0
330
1F
100
AcDbEntity
  8
0
  6
Continuous
 62
     7
370
    25
100
AcDbCircle
 10
89.0804557792
 20
-101.8069967522
 30
0.0
 40
2.0
100
AcDbArc
 50
332.7648533007
 51
0.0
  0
ARC
  5
D1
330
1F
100
AcDbEntity
  8
0
  6
Continuous
 62
     7
370
    25
100
AcDbCircle
 10
183.0804557792
 20
-101.8069967522
 30
0.0
 40
2.0
100
AcDbArc
 50
180.0
 51
207.2351466993
  0
LINE
  5
D2
330
1F
100
AcDbEntity
  8
0
  6
Continuous
 62
     7
370
    25
100
AcDbLine
 10
91.080453991
 20
-23.2914992906
 30
0.0
 11
91.080453991
 21
-101.8069953955
 31
0.0
  0
LINE
  5
D3
330
1F
100
AcDbEntity
  8
0
  6
Continuous
 62
     7
370
    25
100
AcDbLine
 10
181.0804575673
 20
-101.8069953955
 30
0.0
 11
181.0804575673
 21
-23.2914992906
 31
0.0
  0
LINE
  5
D4
330
1F
100
AcDbEntity
  8
0
  6
Continuous
 62
     7
370
    25
100
AcDbLine
 10
56.0804575673
 20
-268.2914966084
 30
0.0
 11
216.080453991
 21
-268.2914966084
 31
0.0
  0
LINE
  5
D5
330
1F
100
AcDbEntity
  8
0
  6
Continuous
 62
     7
370
    25
100
AcDbLine
 10
91.080453991
 20
-23.2914992906
 30
0.0
 11
181.0804575673
 21
-23.2914992906
 31
0.0
  0
LINE
  5
D6
330
1F
100
AcDbEntity
  8
0
  6
Continuous
 62
     1
370
    25
100
AcDbLine
 10
56.0804575673
 20
-170.7759973891
 30
0.0
 11
216.080453991
 21
-170.7759973891
 31
0.0
  0
LINE
  5
D7
330
1F
100
AcDbEntity
  8
0
  6
Continuous
 62
     1
370
    25
100
AcDbLine
 10
56.3021868459
 20
-169.8607103266
 30
0.0
 11
215.8587247125
 21
-169.8607103266
 31
0.0
  0
LINE
  5
D8
330
1F
100
AcDbEntity
  8
0
  6
Continuous
 62
     1
370
    25
100
AcDbLine
 10
90.8587284378
 20
-102.7222843207
 30
0.0
 11
181.3021831206
 21
-102.7222843207
 31
0.0
  0
LINE
  5
D9
330
1F
100
AcDbEntity
  8
0
  6
Continuous
 62
     1
370
    25
100
AcDbLine
 10
91.080453991
 20
-101.8069953955
 30
0.0
 11
181.0804575673
 21
-101.8069953955
 31
0.0
  0
LINE
  5
DA
330
1F
100
AcDbEntity
  8
0
  6
Continuous
 62
     7
370
    25
100
AcDbLine
 10
459.0061359073
 20
-46.7184307199
 30
0.0
 11
390.0522651385
 21
-6.9122084244
 31
0.0
  0
LINE
  5
DB
330
1F
100
AcDbEntity
  8
0
  6
Continuous
 62
     7
370
    25
100
AcDbLine
 10
310.0587689234
 20
-145.4800223166
 30
0.0
 11
379.0126396922
 21
-185.2862446122
 31
0.0
  0
SPLINE
  5
DC
330
1F
100
AcDbEntity
  8
0
  6
Continuous
 62
     7
370
    25
100
AcDbSpline
210
0.0
220
0.0
230
1.0
 70
     8
 71
     3
 72
    12
 73
     8
 74
     0
 42
0.000000001
 43
0.00000001
 40
0.0
 40
0.0
 40
0.0
 40
0.0
 40
0.2382851512521527
 40
0.4771634682231837
 40
0.7152210243363196
 40
0.9525125159105627
 40
1.0
 40
1.0
 40
1.0
 40
1.0
 10
469.2164812793716
 20
-56.63429114331352
 30
0.0
 10
468.7395085088563
 20
-55.92454626441579
 30
0.0
 10
467.7843756345199
 20
-54.50328973127114
 30
0.0
 10
466.1877308779577
 20
-52.56362254248874
 30
0.0
 10
464.4663906254464
 20
-50.79141132617208
 30
0.0
 10
463.1422641494648
 20
-49.57656789200527
 30
0.0
 10
462.360461721119
 20
-49.00616329233144
 30
0.0
 10
462.2300945467493
 20
-48.91104714378702
 30
0.0
  0
SPLINE
  5
DD
330
1F
100
AcDbEntity
  8
0
  6
Continuous
 62
     7
370
    25
100
AcDbSpline
210
0.0
220
0.0
230
1.0
 70
     8
 71
     3
 72
    12
 73
     8
 74
     0
 42
0.000000001
 43
0.00000001
 40
0.0
 40
0.0
 40
0.0
 40
0.0
 40
0.0951077259163153
 40
0.3479306972203802
 40
0.6012050080899249
 40
0.8551321480766182
 40
1.0
 40
1.0
 40
1.0
 40
1.0
 10
382.5065212375224
 20
-186.9666136505881
 30
0.0
 10
382.7840495808906
 20
-187.0860229570115
 30
0.0
 10
383.79932598537
 20
-187.5228556416144
 30
0.0
 10
385.6463418594001
 20
-188.0885186260751
 30
0.0
 10
388.0428612995037
 20
-188.652507742191
 30
0.0
 10
390.1578362216902
 20
-188.9929952671592
 30
0.0
 10
391.4944431442953
 20
-189.0750971481596
 30
0.0
 10
391.9799842811494
 20
-189.1049218033852
 30
0.0
  0
LINE
  5
DE
330
1F
100
AcDbEntity
  8
0
  6
Continuous
 62
     7
370
    25
100
AcDbLine
 10
397.0267177276
 20
-189.1108360916
 30
0.0
 11
454.3030507415
 21
-185.0113697752
 31
0.0
  0
LINE
  5
DF
330
1F
100
AcDbEntity
  8
0
  6
Continuous
 62
     7
370
    25
100
AcDbLine
 10
496.4194231296
 20
-112.0557674103
 30
0.0
 11
471.3266488609
 21
-60.4056308163
 31
0.0
  0
LINE
  5
E0
330
1F
100
AcDbEntity
  8
0
  6
Continuous
 62
     7
370
    25
100
AcDbLine
 10
545.7948486527
 20
-137.2339087959
 30
0.0
 11
494.1739786524
 21
-107.4338148576
 31
0.0
  0
LINE
  5
E1
330
1F
100
AcDbEntity
  8
0
  6
Continuous
 62
     7
370
    25
100
AcDbLine
 10
449.1776343972
 20
-185.3782132136
 30
0.0
 11
500.7985043975
 21
-215.1783071519
 31
0.0
  0
LWPOLYLINE
  5
E2
330
1F
100
AcDbEntity
  8
0
  6
Continuous
 62
     7
370
    25
100
AcDbPolyline
 90
      118
 70
   128
 43
0.0
 10
293.4869758005
 20
-108.8524391135
 10
293.568524684
 20
-105.2990291521
 10
293.8129447952
 20
-101.661705226
 10
294.2195249061
 20
-97.9509589947
 10
294.7870901732
 20
-94.1774904411
 10
295.5140126745
 20
-90.3521732713
 10
296.3981956044
 20
-86.4860400842
 10
297.4370785417
 20
-82.5902435882
 10
298.6276795969
 20
-78.6760048941
 10
299.9665585335
 20
-74.7546211157
 10
301.449858915
 20
-70.8373908488
 10
303.073302836
 20
-66.9356080868
 10
304.8322067282
 20
-63.060530283
 10
306.7214997988
 20
-59.2233251194
 10
308.7357372018
 20
-55.4350568204
 10
310.8691105747
 20
-51.7066466088
 10
313.1154664775
 20
-48.0488498945
 10
315.4683327349
 20
-44.4722076068
 10
317.92092107
 20
-40.9870294645
 10
320.4661639832
 20
-37.6033696449
 10
323.0967200204
 20
-34.3309841979
 10
325.8050027487
 20
-31.1793082352
 10
328.5832084158
 20
-28.1574217121
 10
331.4233238521
 20
-25.2740509486
 10
334.3171607151
 20
-22.5374941081
 10
337.2563752461
 20
-19.9556523775
 10
340.2324926356
 20
-17.5359672317
 10
343.2369327073
 20
-15.2854177742
 10
346.2610323083
 20
-13.2104834766
 10
349.2960726384
 20
-11.3171527365
 10
352.333302629
 20
-9.6108911301
 10
355.3639649552
 20
-8.0966081445
 10
358.3793220485
 20
-6.7786725797
 10
361.3706788165
 20
-5.660887265
 10
364.3294112896
 20
-4.7464725219
 10
367.2469886822
 20
-4.0380655957
 10
370.1149987467
 20
-3.5377121027
 10
372.9251714813
 20
-3.2468462604
 10
375.6694054714
 20
-3.1663121829
 10
378.3397876462
 20
-3.296346392
 10
380.9286209375
 20
-3.6365679342
 10
383.4284374506
 20
-4.1859951114
 10
385.8320300743
 20
-4.9430485266
 10
388.1324709205
 20
-5.9055434802
 10
390.3231271288
 20
-7.0707021393
 10
392.3976793062
 20
-8.4351672278
 10
394.3501478686
 20
-9.9950081124
 10
396.1749062116
 20
-11.7457192829
 10
397.8666859791
 20
-13.6822629389
 10
399.4206192103
 20
-15.7990446584
 10
400.8322172657
 20
-18.0899711917
 10
402.0974129744
 20
-20.5484291718
 10
403.2125606341
 20
-23.1673353053
 10
404.1744412792
 20
-25.9391363726
 10
404.980278486
 20
-28.855844211
 10
405.6277594463
 20
-31.9090440817
 10
406.1150086252
 20
-35.089935732
 10
406.4406246401
 20
-38.3893467073
 10
406.6036697235
 20
-41.7977631487
 10
406.6036697235
 20
-45.3053602112
 10
406.4406246401
 20
-48.902024499
 10
406.1150086252
 20
-52.5773837228
 10
405.6277594463
 20
-56.3208413005
 10
404.980278486
 20
-60.1216067755
 10
404.1744412792
 20
-63.9687144488
 10
403.2125606341
 20
-67.8510792699
 10
402.0974129744
 20
-71.7575074856
 10
400.8322172657
 20
-75.6767293377
 10
399.4206192103
 20
-79.5974522946
 10
397.8666859791
 20
-83.5083671337
 10
396.1749062116
 20
-87.3981981324
 10
394.3501478686
 20
-91.2557304408
 10
392.3976793062
 20
-95.0698435439
 10
390.3231271288
 20
-98.8295355926
 10
388.1324709205
 20
-102.5239720727
 10
385.8320300743
 20
-106.142499492
 10
383.4284374506
 20
-109.6746818803
 10
380.9286209375
 20
-113.1103357684
 10
378.3397876462
 20
-116.439560606
 10
375.6694054714
 20
-119.6527524473
 10
372.9251714813
 20
-122.7406434929
 10
370.1149987467
 20
-125.6943340276
 10
367.2469886822
 20
-128.5053144715
 10
364.3294112896
 20
-131.1654707009
 10
361.3706788165
 20
-133.6671357579
 10
358.3793220485
 20
-136.0030974525
 10
355.3639649552
 20
-138.1666190827
 10
352.333302629
 20
-140.1514643379
 10
349.2960726384
 20
-141.9519138362
 10
346.2610323083
 20
-143.5627660726
 10
343.2369327073
 20
-144.9793828545
 10
340.2324926356
 20
-146.1976860672
 10
337.2563752461
 20
-147.2141529188
 10
334.3171607151
 20
-148.025856052
 10
331.4233238521
 20
-148.6304521351
 10
328.5832084158
 20
-149.0262088563
 10
325.8050027487
 20
-149.2119703196
 10
323.0967200204
 20
-149.1872110368
 10
320.4661639832
 20
-148.9520009422
 10
317.92092107
 20
-148.5070160387
 10
315.4683327349
 20
-147.8535361137
 10
313.1154664775
 20
-146.9934553831
 10
310.8691105747
 20
-145.9292459882
 10
308.7357372018
 20
-144.6639762435
 10
306.7214997988
 20
-143.2012969484
 10
304.8322067282
 20
-141.5454231332
 10
303.073302836
 20
-139.7011325368
 10
301.449858915
 20
-137.6737382286
 10
299.9665585335
 20
-135.4690901288
 10
298.6276795969
 20
-133.0935430666
 10
297.4370785417
 20
-130.5539430908
 10
296.3981956044
 20
-127.8576153028
 10
295.5140126745
 20
-125.012337997
 10
294.7870901732
 20
-122.0263076825
 10
294.2195249061
 20
-118.9081360379
 10
293.8129447952
 20
-115.6668172106
 10
293.568524684
 20
-112.3116947381
 10
293.4869758005
 20
-108.8524391135
  0
LWPOLYLINE
  5
E3
330
1F
100
AcDbEntity
  8
0
  6
Continuous
 62
     7
370
    25
100
AcDbPolyline
 90
      111
 70
   128
 43
0.0
 10
300.2044880301
 20
-104.9745018475
 10
300.2857893009
 20
-101.6411857934
 10
300.5294296954
 20
-98.2248728428
 10
300.9346136919
 20
-94.7367071246
 10
301.5000242014
 20
-91.1880623784
 10
302.2238067625
 20
-87.590521801
 10
303.1036064201
 20
-83.9558137905
 10
304.1365571885
 20
-80.2957936946
 10
305.3192820514
 20
-76.6224035055
 10
306.6479298406
 20
-72.9476216735
 10
308.118164699
 20
-69.2834357286
 10
309.7251871542
 20
-65.6417996971
 10
311.4637630945
 20
-62.0345839137
 10
313.3282132321
 20
-58.4735658947
 10
315.3124631524
 20
-54.9703527756
 10
317.4100354116
 20
-51.5363737061
 10
319.6140916836
 20
-48.1828311836
 10
321.9174432965
 20
-44.9206584691
 10
324.3125723062
 20
-41.7605043796
 10
326.791671009
 20
-38.7126678917
 10
329.3466511613
 20
-35.7870989035
 10
331.9691795409
 20
-32.9933351191
 10
334.6507016546
 20
-30.3404883626
 10
337.3824720314
 20
-27.8372088393
 10
340.1555779298
 20
-25.4916714494
 10
342.9609762167
 20
-23.3115179963
 10
345.7895147698
 20
-21.3038691662
 10
348.631968533
 20
-19.4752611276
 10
351.4790655289
 20
-17.8316670168
 10
354.3215192921
 20
-16.3784477961
 10
357.1500578452
 20
-15.1203355264
 10
359.9554561322
 20
-14.0614450623
 10
362.7285620306
 20
-13.2052225333
 10
365.4603324073
 20
-12.5544671152
 10
368.141854521
 20
-12.1112943398
 10
370.7643829006
 20
-11.877151308
 10
373.3193630529
 20
-11.8528030031
 10
375.7984617558
 20
-12.0383330545
 10
378.1935907655
 20
-12.4331300518
 10
380.4969423784
 20
-13.0359096007
 10
382.7009986504
 20
-13.8447029181
 10
384.7985709096
 20
-14.8568766067
 10
386.7828208299
 20
-16.0691235324
 10
388.6472709674
 20
-17.477493243
 10
390.3858469078
 20
-19.0773919726
 10
391.992869363
 20
-20.8635993712
 10
393.4631042214
 20
-22.8302882809
 10
394.7917520105
 20
-24.9710460282
 10
395.9744768735
 20
-27.278891157
 10
397.0074276418
 20
-29.7462916814
 10
397.8872272994
 20
-32.3652046289
 10
398.6110098606
 20
-35.1270836488
 10
399.17642037
 20
-38.0229193162
 10
399.5816043666
 20
-41.0432695498
 10
399.8252447611
 20
-44.1782812885
 10
399.9065460319
 20
-47.4177288935
 10
399.8252447611
 20
-50.7510449476
 10
399.5816043666
 20
-54.1673578982
 10
399.17642037
 20
-57.6555236164
 10
398.6110098606
 20
-61.2041683626
 10
397.8872272994
 20
-64.80170894
 10
397.0074276418
 20
-68.4364169505
 10
395.9744768735
 20
-72.0964370464
 10
394.7917520105
 20
-75.7698272354
 10
393.4631042214
 20
-79.4446090675
 10
391.992869363
 20
-83.1087950124
 10
390.3858469078
 20
-86.7504310439
 10
388.6472709674
 20
-90.3576468273
 10
386.7828208299
 20
-93.9186648463
 10
384.7985709096
 20
-97.4218779654
 10
382.7009986504
 20
-100.8558570349
 10
380.4969423784
 20
-104.2093995574
 10
378.1935907655
 20
-107.4715722719
 10
375.7984617558
 20
-110.6317263614
 10
373.3193630529
 20
-113.6795628493
 10
370.7643829006
 20
-116.6051318375
 10
368.141854521
 20
-119.3988956219
 10
365.4603324073
 20
-122.0517423784
 10
362.7285620306
 20
-124.5550219017
 10
359.9554561322
 20
-126.9005592916
 10
357.1500578452
 20
-129.0807127447
 10
354.3215192921
 20
-131.0883615748
 10
351.4790655289
 20
-132.9169696134
 10
348.631968533
 20
-134.5605637242
 10
345.7895147698
 20
-136.0137829449
 10
342.9609762167
 20
-137.2718952146
 10
340.1555779298
 20
-138.3307856786
 10
337.3824720314
 20
-139.1870082076
 10
334.6507016546
 20
-139.8377636258
 10
331.9691795409
 20
-140.2809364011
 10
329.3466511613
 20
-140.515079433
 10
326.791671009
 20
-140.5394277379
 10
324.3125723062
 20
-140.3538976864
 10
321.9174432965
 20
-139.9591006892
 10
319.6140916836
 20
-139.3563211402
 10
317.4100354116
 20
-138.5475278229
 10
315.3124631524
 20
-137.5353541342
 10
313.3282132321
 20
-136.3231072086
 10
311.4637630945
 20
-134.914737498
 10
309.7251871542
 20
-133.3148387684
 10
308.118164699
 20
-131.5286313698
 10
306.6479298406
 20
-129.5619424601
 10
305.3192820514
 20
-127.4211847128
 10
304.1365571885
 20
-125.113339584
 10
303.1036064201
 20
-122.6459390596
 10
302.2238067625
 20
-120.027026112
 10
301.5000242014
 20
-117.2651470921
 10
300.9346136919
 20
-114.3693114248
 10
300.5294296954
 20
-111.3489611912
 10
300.2857893009
 20
-108.2139494525
 10
300.2044880301
 20
-104.9745018475
  0
ARC
  5
E4
330
1F
100
AcDbEntity
  8
0
  6
Continuous
 62
     7
370
    25
100
AcDbCircle
 10
445.5968940828
 20
-69.9383693491
 30
0.0
 40
26.81367778303788
100
AcDbArc
 50
52.0502951085
 51
59.99407088
  0
ARC
  5
E5
330
1F
100
AcDbEntity
  8
0
  6
Continuous
 62
     7
370
    25
100
AcDbCircle
 10
392.4271206067
 20
-162.0371430151
 30
0.0
 40
26.84155403988369
100
AcDbArc
 50
240.0155175226
 51
247.9068347192
  0
ARC
  5
E6
330
1F
100
AcDbEntity
  8
0
  6
Continuous
 62
     7
370
    25
100
AcDbCircle
 10
435.3958839555
 20
-77.9961886214
 30
0.0
 40
39.99556382584815
100
AcDbArc
 50
15.7694157906
 51
32.0713775997
  0
ARC
  5
E7
330
1F
100
AcDbEntity
  8
0
  6
Continuous
 62
     7
370
    25
100
AcDbCircle
 10
394.3906290223
 20
-149.8471526948
 30
0.0
 40
39.34515558327717
100
AcDbArc
 50
266.7201417287
 51
284.7087322995
  0
LWPOLYLINE
  5
E8
330
1F
100
AcDbEntity
  8
0
  6
Continuous
 62
     7
370
    25
100
AcDbPolyline
 90
        3
 70
   128
 43
0.0
 10
496.4194231296
 20
-112.0557674103
 10
497.0910884784
 20
-113.5822345918
 10
497.7203409266
 20
-115.3662871074
  0
LINE
  5
E9
330
1F
100
AcDbEntity
  8
0
  6
Continuous
 62
     7
370
    25
100
AcDbLine
 10
454.4334148952
 20
-185.0016397176
 30
0.0
 11
454.3030507415
 21
-185.0113697752
 31
0.0
  0
LWPOLYLINE
  5
EA
330
1F
100
AcDbEntity
  8
0
  6
Continuous
 62
     7
370
    25
100
AcDbPolyline
 90
       46
 70
   128
 43
0.0
 10
545.7948486527
 20
-137.2339087959
 10
545.7966767722
 20
-137.2349644899
 10
547.3444802711
 20
-138.2611825322
 10
548.7697418079
 20
-139.48075958
 10
550.0651989539
 20
-140.887480449
 10
551.2242504589
 20
-142.4741763967
 10
552.2409904956
 20
-144.2327616275
 10
553.1102350018
 20
-146.1542774019
 10
553.8275559242
 20
-148.228930824
 10
554.3892996579
 20
-150.4461480747
 10
554.7926028513
 20
-152.7946325895
 10
555.0354082114
 20
-155.262417151
 10
555.1164829429
 20
-157.836924728
 10
555.0354082114
 20
-160.5050391974
 10
554.7926028513
 20
-163.2531608605
 10
554.3892996579
 20
-166.0672893309
 10
553.8275559242
 20
-168.9330820912
 10
553.1102350018
 20
-171.8359366215
 10
552.2409904956
 20
-174.7610607404
 10
551.2242504589
 20
-177.6935490304
 10
550.0651989539
 20
-180.618457361
 10
548.7697418079
 20
-183.5208812139
 10
547.3444802711
 20
-186.3860302051
 10
545.7966767722
 20
-189.1993041287
 10
544.1342180403
 20
-191.9463674782
 10
542.3655755919
 20
-194.6132224476
 10
540.4997622672
 20
-197.1862796504
 10
538.5462861318
 20
-199.652427317
 10
536.5151017444
 20
-201.9990989718
 10
534.4165587906
 20
-204.2143335046
 10
532.2613513746
 20
-206.2868439881
 10
530.0604627017
 20
-208.2060709045
 10
527.825106797
 20
-209.9622340424
 10
525.5666754928
 20
-211.5463813508
 10
523.2966765251
 20
-212.9504459688
 10
521.0266775573
 20
-214.1672663719
 10
518.7682462531
 20
-215.1906483444
 10
516.5328903485
 20
-216.0153721983
 10
514.3320016756
 20
-216.637237255
 10
512.1767942596
 20
-217.053076288
 10
510.0782513057
 20
-217.2607678763
 10
508.0470669184
 20
-217.2592517971
 10
506.0935907829
 20
-217.0485396681
 10
504.2277774582
 20
-216.6297046762
 10
502.4591350099
 20
-216.0048808118
 10
500.7985043975
 20
-215.1783071519
  0
LWPOLYLINE
  5
EB
330
1F
100
AcDbEntity
  8
0
  6
Continuous
 62
     1
370
    25
100
AcDbPolyline
 90
       57
 70
   128
 43
0.0
 10
462.0864883801
 20
-48.7944199507
 10
463.3040186373
 20
-49.801230408
 10
465.1287769803
 20
-51.5519415785
 10
466.8205567479
 20
-53.4884852344
 10
468.3744899791
 20
-55.605266954
 10
469.7860880345
 20
-57.8961934873
 10
471.0512837432
 20
-60.3546514674
 10
472.1664314029
 20
-62.9735576008
 10
473.128312048
 20
-65.7453586681
 10
473.9341492548
 20
-68.6620665066
 10
474.581630215
 20
-71.7152663772
 10
475.0688793939
 20
-74.8961580276
 10
475.3944954088
 20
-78.1955690029
 10
475.5575404923
 20
-81.6039854442
 10
475.5575404923
 20
-85.1115825068
 10
475.3944954088
 20
-88.7082467945
 10
475.0688793939
 20
-92.3836060183
 10
474.581630215
 20
-96.1270635961
 10
473.9341492548
 20
-99.9278290711
 10
473.128312048
 20
-103.7749367444
 10
472.1664314029
 20
-107.6573015655
 10
471.0512837432
 20
-111.5637297811
 10
469.7860880345
 20
-115.4829516333
 10
468.3744899791
 20
-119.4036745901
 10
466.8205567479
 20
-123.3145894292
 10
465.1287769803
 20
-127.2044204279
 10
463.3040186373
 20
-131.0619527363
 10
461.351550075
 20
-134.8760658394
 10
459.2769978976
 20
-138.6357578881
 10
457.0863416892
 20
-142.3301943682
 10
454.7859008431
 20
-145.9487217876
 10
452.3823082193
 20
-149.4809041758
 10
449.8824917063
 20
-152.916558064
 10
447.293658415
 20
-156.2457829015
 10
444.6232762402
 20
-159.4589747428
 10
441.8790422501
 20
-162.5468657884
 10
439.0688695155
 20
-165.5005563232
 10
436.2008594509
 20
-168.311536767
 10
433.2832820583
 20
-170.9716929964
 10
430.3245495853
 20
-173.4733580534
 10
427.3331928173
 20
-175.809319748
 10
424.317835724
 20
-177.9728413782
 10
421.2871733977
 20
-179.9576866335
 10
418.2499434071
 20
-181.7581361317
 10
415.214903077
 20
-183.3689883681
 10
412.1908034761
 20
-184.78560515
 10
409.1863634044
 20
-186.0039083627
 10
406.2102460148
 20
-187.0203752143
 10
403.2710314839
 20
-187.8320783475
 10
400.3771946208
 20
-188.4366744307
 10
397.5370791845
 20
-188.8324311518
 10
394.7588735174
 20
-189.0181926152
 10
392.0505907891
 20
-188.9934333323
 10
389.420034752
 20
-188.7582232377
 10
386.8747918388
 20
-188.3132383342
 10
384.4222035036
 20
-187.6597584093
 10
382.3316434263
 20
-186.90781578
  0
ARC
  5
EC
330
1F
100
AcDbEntity
  8
0
  6
Continuous
 62
     1
370
    25
100
AcDbCircle
 10
487.7142745087
 20
-155.664826843
 30
0.0
 40
120.6329649457666
100
AcDbArc
 50
141.9299571974
 51
158.0754181831
  0
LWPOLYLINE
  5
ED
330
1F
100
AcDbEntity
  8
0
  6
Continuous
 62
     1
370
    25
100
AcDbPolyline
 90
       41
 70
   128
 43
0.0
 10
473.8861426772
 20
-67.1267309864
 10
474.4291257949
 20
-69.1669000692
 10
475.0748102458
 20
-72.2116373403
 10
475.5607107255
 20
-75.3837120573
 10
475.8854258515
 20
-78.6739772411
 10
476.0480178564
 20
-82.0729475502
 10
476.0480178564
 20
-85.5708228551
 10
475.8854258515
 20
-89.1575178971
 10
475.5607107255
 20
-92.8226911852
 10
475.0748102458
 20
-96.5557746548
 10
474.4291257949
 20
-100.3460033245
 10
473.6255171027
 20
-104.1824525591
 10
472.6663075142
 20
-108.054054039
 10
471.5542523795
 20
-111.9496535533
 10
470.2925601276
 20
-115.8580163241
 10
468.8848764607
 20
-119.7678711126
 10
467.3352527448
 20
-123.6679451971
 10
465.6481565458
 20
-127.5469963133
 10
463.8284584588
 20
-131.3938385092
 10
461.8814004981
 20
-135.197378644
 10
459.8125960972
 20
-138.9466528904
 10
457.6280143034
 20
-142.6308480263
 10
455.3339481681
 20
-146.2393470591
 10
452.9370173806
 20
-149.7617398732
 10
450.4441287557
 20
-153.1878703742
 10
447.8624709654
 20
-156.5078669074
 10
445.1994908309
 20
-159.71214986
 10
442.4628617127
 20
-162.7914894536
 10
439.6604782426
 20
-165.7369905339
 10
436.8004168102
 20
-168.5401823021
 10
433.8909263442
 20
-171.1929628003
 10
430.9403940674
 20
-173.687697768
 10
427.9573277162
 20
-176.0171822373
 10
424.9503285405
 20
-178.1747108734
 10
421.9280659495
 20
-180.1540500248
 10
418.899254051
 20
-181.9495060205
 10
415.8726257215
 20
-183.555897553
 10
412.8569074165
 20
-184.9685884712
 10
409.8607946401
 20
-186.1835141089
 10
406.892926179
 20
-187.1971657404
 10
404.3805749298
 20
-187.902930819
  0
LWPOLYLINE
  5
EE
330
1F
100
AcDbEntity
  8
0
  6
Continuous
 62
     1
370
    25
100
AcDbPolyline
 90
       34
 70
   128
 43
0.0
 10
497.7203409266
 20
-115.3662871074
 10
497.8119444677
 20
-115.6671097273
 10
498.3764540883
 20
-117.8952535684
 10
498.7817460861
 20
-120.2553083325
 10
499.025747363
 20
-122.7352529979
 10
499.1072198554
 20
-125.3224468443
 10
499.025747363
 20
-128.0037068281
 10
498.7817460861
 20
-130.7653693713
 10
498.3764540883
 20
-133.5933643156
 10
497.8119444677
 20
-136.4732770914
 10
497.0910884784
 20
-139.3904348365
 10
496.2175607987
 20
-142.3299708463
 10
495.1958105553
 20
-145.276908982
 10
494.0310507866
 20
-148.2162275488
 10
492.729208393
 20
-151.1329535885
 10
491.2969241376
 20
-154.0122206748
 10
489.7414946933
 20
-156.8393571213
 10
488.0708436677
 20
-159.5999559416
 10
486.2934860413
 20
-162.2799516525
 10
484.4184794352
 20
-164.8656894718
 10
482.4553780133
 20
-167.3439853904
 10
480.4141850665
 20
-169.7022204652
 10
478.3053029639
 20
-171.9283697122
 10
476.1394765177
 20
-174.0110925961
 10
473.9277429338
 20
-175.9397740905
 10
471.6813732015
 20
-177.7045919737
 10
469.4118136476
 20
-179.2965444846
 10
467.1306297953
 20
-180.7075253186
 10
464.849445943
 20
-181.9303432985
 10
462.5798863891
 20
-182.9587684722
 10
460.3335166568
 20
-183.7875538756
 10
458.1217830729
 20
-184.4124856219
 10
455.9559566267
 20
-184.8303727258
 10
454.4334148952
 20
-185.0016397176
  0
ARC
  5
EF
330
1F
100
AcDbEntity
  8
0
  6
Continuous
 62
     1
370
    25
100
AcDbCircle
 10
489.9518588498
 20
-156.9565711418
 30
0.0
 40
121.0255609756387
100
AcDbArc
 50
147.686564975
 51
152.3187977903
  0
LWPOLYLINE
  5
F0
330
1F
100
AcDbEntity
  8
0
  6
Continuous
 62
     1
370
    25
100
AcDbPolyline
 90
       39
 70
   128
 43
0.0
 10
495.4190413384
 20
-109.9966124929
 10
495.7054107348
 20
-110.4238324348
 10
496.7221507716
 20
-112.1824176655
 10
497.5913952778
 20
-114.10393344
 10
498.3087162002
 20
-116.178586862
 10
498.8704599339
 20
-118.3958041128
 10
499.2737631273
 20
-120.7442886276
 10
499.5165684874
 20
-123.212073189
 10
499.5976432188
 20
-125.786580766
 10
499.5165684874
 20
-128.4546952355
 10
499.2737631273
 20
-131.2028168986
 10
498.8704599339
 20
-134.0169453689
 10
498.3087162002
 20
-136.8827381293
 10
497.5913952778
 20
-139.7855926596
 10
496.7221507716
 20
-142.7107167785
 10
495.7054107348
 20
-145.6432050685
 10
494.5463592299
 20
-148.5681133991
 10
493.2509020839
 20
-151.470537252
 10
491.8256405471
 20
-154.3356862432
 10
490.2778370482
 20
-157.1489601667
 10
488.6153783163
 20
-159.8960235162
 10
486.8467358679
 20
-162.5628784857
 10
484.9809225432
 20
-165.1359356884
 10
483.0274464077
 20
-167.602083355
 10
480.9962620204
 20
-169.9487550098
 10
478.8977190665
 20
-172.1639895427
 10
476.7425116505
 20
-174.2365000261
 10
474.5416229776
 20
-176.1557269426
 10
472.306267073
 20
-177.9118900804
 10
470.0478357688
 20
-179.4960373889
 10
467.777836801
 20
-180.9001020069
 10
465.5078378333
 20
-182.11692241
 10
463.2494065291
 20
-183.1403043825
 10
461.0140506245
 20
-183.9650282364
 10
458.8131619516
 20
-184.586893293
 10
456.6579545355
 20
-185.0027323261
 10
454.5594115817
 20
-185.2104239143
 10
452.5282271943
 20
-185.2089078351
 10
452.0195963923
 20
-185.1748050595
  0
ENDSEC
  0
SECTION
  2
OBJECTS
  0
DICTIONARY
  5
C
330
0
100
AcDbDictionary
281
     1
  3
ACAD_GROUP
350
D
  3
ACAD_LAYOUT
350
1A
  3
ACAD_MLINESTYLE
350
17
  3
ACAD_PLOTSETTINGS
350
19
  3
ACAD_PLOTSTYLENAME
350
E
  3
ACAD_SCALELIST
350
47
  0
DICTIONARY
  5
D
102
{ACAD_REACTORS
330
C
102
}
330
C
100
AcDbDictionary
281
     1
  0
DICTIONARY
  5
1A
102
{ACAD_REACTORS
330
C
102
}
330
C
100
AcDbDictionary
281
     1
  3
Layout1
350
1E
  3
Layout2
350
26
  3
Model
350
22
  0
DICTIONARY
  5
17
102
{ACAD_REACTORS
330
C
102
}
330
C
100
AcDbDictionary
281
     1
  3
Standard
350
18
  0
DICTIONARY
  5
19
102
{ACAD_REACTORS
330
C
102
}
330
C
100
AcDbDictionary
281
     1
  0
ACDBDICTIONARYWDFLT
  5
E
102
{ACAD_REACTORS
330
C
102
}
330
C
100
AcDbDictionary
281
     1
  3
Normal
350
F
100
AcDbDictionaryWithDefault
340
F
  0
DICTIONARY
  5
47
102
{ACAD_REACTORS
330
C
102
}
330
C
100
AcDbDictionary
281
     1
  3
A0
350
48
  3
A1
350
49
  3
A2
350
4A
  3
A3
350
4B
  3
A4
350
4C
  3
A5
350
4D
  3
A6
350
4E
  3
A7
350
4F
  3
A8
350
50
  3
A9
350
51
  3
B0
350
52
  3
B1
350
53
  3
B2
350
54
  3
B3
350
55
  3
B4
350
56
  3
B5
350
57
  3
B6
350
58
  3
B7
350
59
  3
B8
350
5A
  3
B9
350
5B
  3
C0
350
5C
  3
C1
350
5D
  3
C2
350
5E
  3
C3
350
5F
  3
C4
350
60
  3
C5
350
61
  3
C6
350
62
  3
C7
350
63
  3
C8
350
64
  3
C9
350
65
  3
D0
350
66
  3
D1
350
67
  3
D2
350
68
  0
LAYOUT
  5
1E
102
{ACAD_REACTORS
330
1A
102
}
330
1A
100
AcDbPlotSettings
  1

  2
none_device
  4

  6

 40
0.0
 41
0.0
 42
0.0
 43
0.0
 44
0.0
 45
0.0
 46
0.0
 47
0.0
 48
0.0
 49
0.0
140
0.0
141
0.0
142
1.0
143
1.0
 70
   688
 72
     1
 73
     0
 74
     5
  7

 75
    16
147
1.0
148
0.0
149
0.0
100
AcDbLayout
  1
Layout1
 70
     1
 71
     1
 10
0.0
 20
0.0
 11
420.0
 21
297.0
 12
0.0
 22
0.0
 32
0.0
 14
1.0000000000E+20
 24
1.0000000000E+20
 34
1.0000000000E+20
 15
-1.0000000000E+20
 25
-1.0000000000E+20
 35
-1.0000000000E+20
146
0.0
 13
0.0
 23
0.0
 33
0.0
 16
1.0
 26
0.0
 36
0.0
 17
0.0
 27
1.0
 37
0.0
 76
     0
330
1B
  0
LAYOUT
  5
26
102
{ACAD_REACTORS
330
1A
102
}
330
1A
100
AcDbPlotSettings
  1

  2
none_device
  4

  6

 40
0.0
 41
0.0
 42
0.0
 43
0.0
 44
0.0
 45
0.0
 46
0.0
 47
0.0
 48
0.0
 49
0.0
140
0.0
141
0.0
142
1.0
143
1.0
 70
   688
 72
     1
 73
     0
 74
     5
  7

 75
    16
147
1.0
148
0.0
149
0.0
100
AcDbLayout
  1
Layout2
 70
     1
 71
     2
 10
0.0
 20
0.0
 11
0.0
 21
0.0
 12
0.0
 22
0.0
 32
0.0
 14
0.0
 24
0.0
 34
0.0
 15
0.0
 25
0.0
 35
0.0
146
0.0
 13
0.0
 23
0.0
 33
0.0
 16
1.0
 26
0.0
 36
0.0
 17
0.0
 27
1.0
 37
0.0
 76
     0
330
23
  0
LAYOUT
  5
22
102
{ACAD_REACTORS
330
1A
102
}
330
1A
100
AcDbPlotSettings
  1

  2
none_device
  4
Letter_(8.50_x_11.00_Inches)
  6

 40
6.35
 41
6.35
 42
6.35000508
 43
6.35000508
 44
215.9
 45
279.4
 46
0.0
 47
0.0
 48
0.0
 49
0.0
140
0.0
141
0.0
142
1.0
143
1.0
 70
  1712
 72
     1
 73
     0
 74
     0
  7

 75
     0
147
1.0
148
0.0
149
0.0
100
AcDbLayout
  1
Model
 70
     1
 71
     0
 10
0.0
 20
0.0
 11
279.4
 21
215.9
 12
0.0
 22
0.0
 32
0.0
 14
0.0
 24
0.0
 34
0.0
 15
279.4
 25
215.9
 35
0.0
146
0.0
 13
0.0
 23
0.0
 33
0.0
 16
1.0
 26
0.0
 36
0.0
 17
0.0
 27
1.0
 37
0.0
 76
     0
330
1F
331
29
  0
MLINESTYLE
  5
18
102
{ACAD_REACTORS
330
17
102
}
330
17
100
AcDbMlineStyle
  2
Standard
 70
     0
  3

 62
   256
 51
90.0
 52
90.0
 71
     2
 49
0.5
 62
   256
  6
BYLAYER
 49
-0.5
 62
   256
  6
BYLAYER
  0
ACDBPLACEHOLDER
  5
F
102
{ACAD_REACTORS
330
E
102
}
330
E
  0
SCALE
  5
48
102
{ACAD_REACTORS
330
47
102
}
330
47
100
AcDbScale
 70
     0
300
1:1
140
1.0
141
1.0
290
     1
  0
SCALE
  5
49
102
{ACAD_REACTORS
330
47
102
}
330
47
100
AcDbScale
 70
     0
300
1:2
140
1.0
141
2.0
290
     0
  0
SCALE
  5
4A
102
{ACAD_REACTORS
330
47
102
}
330
47
100
AcDbScale
 70
     0
300
1:4
140
1.0
141
4.0
290
     0
  0
SCALE
  5
4B
102
{ACAD_REACTORS
330
47
102
}
330
47
100
AcDbScale
 70
     0
300
1:5
140
1.0
141
5.0
290
     0
  0
SCALE
  5
4C
102
{ACAD_REACTORS
330
47
102
}
330
47
100
AcDbScale
 70
     0
300
1:8
140
1.0
141
8.0
290
     0
  0
SCALE
  5
4D
102
{ACAD_REACTORS
330
47
102
}
330
47
100
AcDbScale
 70
     0
300
1:10
140
1.0
141
10.0
290
     0
  0
SCALE
  5
4E
102
{ACAD_REACTORS
330
47
102
}
330
47
100
AcDbScale
 70
     0
300
1:16
140
1.0
141
16.0
290
     0
  0
SCALE
  5
4F
102
{ACAD_REACTORS
330
47
102
}
330
47
100
AcDbScale
 70
     0
300
1:20
140
1.0
141
20.0
290
     0
  0
SCALE
  5
50
102
{ACAD_REACTORS
330
47
102
}
330
47
100
AcDbScale
 70
     0
300
1:30
140
1.0
141
30.0
290
     0
  0
SCALE
  5
51
102
{ACAD_REACTORS
330
47
102
}
330
47
100
AcDbScale
 70
     0
300
1:40
140
1.0
141
40.0
290
     0
  0
SCALE
  5
52
102
{ACAD_REACTORS
330
47
102
}
330
47
100
AcDbScale
 70
     0
300
1:50
140
1.0
141
50.0
290
     0
  0
SCALE
  5
53
102
{ACAD_REACTORS
330
47
102
}
330
47
100
AcDbScale
 70
     0
300
1:100
140
1.0
141
100.0
290
     0
  0
SCALE
  5
54
102
{ACAD_REACTORS
330
47
102
}
330
47
100
AcDbScale
 70
     0
300
2:1
140
2.0
141
1.0
290
     0
  0
SCALE
  5
55
102
{ACAD_REACTORS
330
47
102
}
330
47
100
AcDbScale
 70
     0
300
4:1
140
4.0
141
1.0
290
     0
  0
SCALE
  5
56
102
{ACAD_REACTORS
330
47
102
}
330
47
100
AcDbScale
 70
     0
300
8:1
140
8.0
141
1.0
290
     0
  0
SCALE
  5
57
102
{ACAD_REACTORS
330
47
102
}
330
47
100
AcDbScale
 70
     0
300
10:1
140
10.0
141
1.0
290
     0
  0
SCALE
  5
58
102
{ACAD_REACTORS
330
47
102
}
330
47
100
AcDbScale
 70
     0
300
100:1
140
100.0
141
1.0
290
     0
  0
SCALE
  5
59
102
{ACAD_REACTORS
330
47
102
}
330
47
100
AcDbScale
 70
     0
300
1/128" = 1'-0"
140
0.0078125
141
12.0
290
     0
  0
SCALE
  5
5A
102
{ACAD_REACTORS
330
47
102
}
330
47
100
AcDbScale
 70
     0
300
1/64" = 1'-0"
140
0.015625
141
12.0
290
     0
  0
SCALE
  5
5B
102
{ACAD_REACTORS
330
47
102
}
330
47
100
AcDbScale
 70
     0
300
1/32" = 1'-0"
140
0.03125
141
12.0
290
     0
  0
SCALE
  5
5C
102
{ACAD_REACTORS
330
47
102
}
330
47
100
AcDbScale
 70
     0
300
1/16" = 1'-0"
140
0.0625
141
12.0
290
     0
  0
SCALE
  5
5D
102
{ACAD_REACTORS
330
47
102
}
330
47
100
AcDbScale
 70
     0
300
3/32" = 1'-0"
140
0.09375
141
12.0
290
     0
  0
SCALE
  5
5E
102
{ACAD_REACTORS
330
47
102
}
330
47
100
AcDbScale
 70
     0
300
1/8" = 1'-0"
140
0.125
141
12.0
290
     0
  0
SCALE
  5
5F
102
{ACAD_REACTORS
330
47
102
}
330
47
100
AcDbScale
 70
     0
300
3/16" = 1'-0"
140
0.1875
141
12.0
290
     0
  0
SCALE
  5
60
102
{ACAD_REACTORS
330
47
102
}
330
47
100
AcDbScale
 70
     0
300
1/4" = 1'-0"
140
0.25
141
12.0
290
     0
  0
SCALE
  5
61
102
{ACAD_REACTORS
330
47
102
}
330
47
100
AcDbScale
 70
     0
300
3/8" = 1'-0"
140
0.375
141
12.0
290
     0
  0
SCALE
  5
62
102
{ACAD_REACTORS
330
47
102
}
330
47
100
AcDbScale
 70
     0
300
1/2" = 1'-0"
140
0.5
141
12.0
290
     0
  0
SCALE
  5
63
102
{ACAD_REACTORS
330
47
102
}
330
47
100
AcDbScale
 70
     0
300
3/4" = 1'-0"
140
0.75
141
12.0
290
     0
  0
SCALE
  5
64
102
{ACAD_REACTORS
330
47
102
}
330
47
100
AcDbScale
 70
     0
300
1" = 1'-0"
140
1.0
141
12.0
290
     0
  0
SCALE
  5
65
102
{ACAD_REACTORS
330
47
102
}
330
47
100
AcDbScale
 70
     0
300
1-1/2" = 1'-0"
140
1.5
141
12.0
290
     0
  0
SCALE
  5
66
102
{ACAD_REACTORS
330
47
102
}
330
47
100
AcDbScale
 70
     0
300
3" = 1'-0"
140
3.0
141
12.0
290
     0
  0
SCALE
  5
67
102
{ACAD_REACTORS
330
47
102
}
330
47
100
AcDbScale
 70
     0
300
6" = 1'-0"
140
6.0
141
12.0
290
     0
  0
SCALE
  5
68
102
{ACAD_REACTORS
330
47
102
}
330
47
100
AcDbScale
 70
     0
300
1'-0" = 1'-0"
140
12.0
141
12.0
290
     0
  0
ENDSEC
  0
EOF
